Wednesday, August 12, 2009

Hotel California tabs

Tabs


Bm
e:----------------------------------------------------
B: ----------------------3--5--7--7h8p7--5/7---
G:---4--4h5p3h4--5------------------------------
D:---------------------------------------------------
A:--------------------------------------------------
E:--------------------------------------------------
.......B..B...C A#B.. C.. D.E..F#. F# G.F#.E.F#

A
e:----------------------------------------
B:----------------------------------------
G:---------7-6--------------------------
D:----7-9---------7h9-7--------------
A:--------------9----------9\7--5/7--
E:----------------------------------------
......A.B..D.C#.F#A.B.A.F#E..D.E

..Em
e:-----------0-------0-------0-------0-
B:---------0-------0-------0-------0---
G:-------0-------2-------4-------7-----
D:-----2-------4-------5-------9-------
A:-------------------------------------
E:-------------------------------------
.......e.G.B.E.f#a.B.E.g.b.B.E.b.d.B.E

e:-----7p0-----10p0-----7p0-----10p0-----7p0-----10p0-
B:---8---------8--------8---------8---------8---------8----------
G:-9---------9--------9---------9--------9---------9------------
D:--------------------------------------------------------------
A:--------------------------------------------------------------
E:--------------------------------------------------------------
...e.G.B.E.e.G.B..E.e.G.B.E.e.G.B.E...e.G.B.E...e.G.B.E.

e:-----7p0-----10p0-----7-6-7-9-10-9-10-12/14-14~~~~~-
B:---8--------8---------8------------------------------------
G:-9--------9---------9--------------------------------------
D:-----------------------------------------------------------
A:-----------------------------------------------------------
E:-----------------------------------------------------------
........................BA#.B.C#D..C#.D.E.F#.F#

Electric

Guitar Fretboard



No comments:

Post a Comment